Comment redimensionner une image

  • Auteur Cryde
  • Niveau Débutant
  • Créé 09 octobre 2008, 12:33
  • Modifié 25 septembre 2009, 08:46
  • Visualitions 1397

Les différents formats d'exportation



Guitar Pro permet en plus de lire des partitions d'exporter celle-ci en divers formats, permettant ainsi de pouvoir les montrer sur leur blog ou site (comme ici)

Voici les différents formats avec une brève explication et s'ils sont ou non autorisé sur le site.

Le Midi


Le midi (Musical Instrument Digital Interface) est un protocole, un langage universel permettant de communiquer des informations musicales numériques entre ordinateurs, synthétiseurs, séquenceurs, etc.
Les fichiers MIDI comprennent des messages décrivant de façon précise une partition : notes, rythme, tempo, instruments, etc. La qualité de restitution sonore d'un fichier MIDI dépend de la carte son utilisée.
Extension : .mid

Je ne vais pas m'attarder plus longtemps sur le midi, je mettrais divers liens pour accéder à des info.
Il n'est pas possible le faire lire du midi sur le site... Cependant, il est possible de mettre un liens vers un midi (cfr annexes pour hébergé des fichiers)

Le ASCII



Le ASCII est une représentation texte d'une tablature, outre le fait qu'il soit peu esthétique, c'est le seul format qui n'a pas besoin de logiciel spécifique pour être lu ou échanger... Il est grandement utilisé sur internet.
Extension : .txt (la plupart du temps)
Exemple de tablature:
e|------------------------------------------------------------------------------------------|
B|------------------------------------------------------------------------------------------|
G|--5-7-7---7---5--5---5----4-5-5-----5---4---5-----5-----4---------------------------------|
D|--5-7-7---7---5--5---5----5-5-5-----5---5---5-----5-----5---------------------------------|
A|-------0-0--0-----0-0--0-0------3-3---3-------3-3----3------------------------------------|
E|------------------------------------------------------------------------------------------|
Guitar One (just listen to song for timing)
e|--------------------------------------------------------------------------------------|
B|------5------------------------6--5-------------6--5----------------------------------|
G|--4-5---7--5--4--5-4-------4-5------7--5--7--5----------------------------------------|
D|---------------------7-5-7------------------------------------------------------------|
A|--------------------------------------------------------------------------------------|
E|--------------------------------------------------------------------------------------|

Et en image :
Image utilisateur

Pour ce faire vous pouvez utilisé les balises :
Code
<ascii>Votre ascii ici</ascii>

N'hésitez pas à l'utilisé pour vos tutoriels ! (je vous conseil cependant de limité à 60 colonnes)



</titre>

<titre="titre2">



Hébergement de fichiers : liste de site gratuits



Il est assez fréquent que vous ayez besoin pour vos tutoriels d'ajouter une image, un son midi ou mp3 !

Pour les images :

- Ouplo : est pour moi un site très ergonomique et facile à prendre en main et entièrement gratuit ! (même pas de pub !)
- Casimages : site assez "simple
- ...

Pour les fichiers :

- Too Files : on peut y mettre à peut près tout sauf les .gp smiley (mais on sait y mettre des .mp3 .mid et co
- RapidShare : assez célèbre mais assez embêtant ... Mais on peut tout y mettre smiley
- MegaUpload : même chose que pour RapidShare