Débuter dans le Sweep Picking

  • Auteur Philippe
  • Niveau Connaisseur
  • Créé 06 janvier 2010, 17:27
  • Modifié 03 mars 2012, 20:26
  • Visualitions 3794

Le Sweep Picking



Définition


Il s'agit d'une technique de guitare qui consiste à jouer des arpèges au médiator.





Conseils


- Tenir fermement son médiator
- COMMENCE PAR JOUER LENTEMENT
- Lorsqu'on change de corde bien veiller à ce que la précédente ne sonne plus en l'étouffant avec la paume de la main

Première étape


Alors pour commencer je vous conseille de ne pas directement jouer avec le médiator (sauf si vous vous sentez vraiment à l'aise) mais de d'abord bloquer toutes les cordes avec votre main de médiator et de jouer les arpèges suivantes avec l'autre.

Position des mains :
Image utilisateur

Tablature


Majeur
E||--19p--16--------------16h--19--||
B||------------17------17------------||
G||----------------16----------------||
D||-----------------------------------||
A||-----------------------------------||
E||-----------------------------------||

Mineur
E||--19p--15--------------15h--19--||
B||------------17------17------------||
G||----------------16----------------||
D||-----------------------------------||
A||-----------------------------------||
E||-----------------------------------||

Diminué
E||--18p--15--------------15h--18--||
B||------------17------17------------||
G||----------------18----------------||
D||-----------------------------------||
A||-----------------------------------||
E||-----------------------------------||


p = Pull Off
h = Hammer On

Doigté





5sec à 7sec mineur
8sec à 10 la diminuée

Exercice de perfectionnement


1)
E||--16h-19p-16----------16h-17p-16----------16h-19p-16---|----||
B||---------------17----17--------------17----17----------------|----||
G||------------------16---------------------16--------------------|----||
D||----------------------------------------------------------------|----||
A||----------------------------------------------------------------|----||
E||----------------------------------------------------------------|----||


E||--15h-19p-15----------15h-18p-15----------15h-19p-15---|----||
B||---------------17----17--------------17----17----------------|----||
G||------------------16---------------------16-------------------|----||
D||----------------------------------------------------------------|----||
A||----------------------------------------------------------------|----||
E||----------------------------------------------------------------|----||

2) (avec tapping)
E||--15h-19p-15----------15h-19-22t-19p-15------------15-19|----||
B||---------------17----17-----------------------17----17--------|----||
G||------------------16------------------------------16-----------|----||
D||-----------------------------------------------------------------|----||
A||-----------------------------------------------------------------|----||
E||-----------------------------------------------------------------|----||