Slap à la guitare

  • Auteur Julienv
  • Niveau Amateur
  • Créé 03 mai 2010, 23:59
  • Modifié 05 août 2010, 23:23
  • Visualitions 3523

Le slap, c’est quoi ?



Le slap (ou slapping), c’est d’abord une technique de bassiste mais qui s’est étendu à plusieurs instruments et aussi à la guitare. On l’utilise beaucoup dans la musique funk, vous comprendrez pourquoi après avoir écouté.

Pour faire, du slap, il « suffit » de percuter les cordes avec le pouce pour ainsi les faire sonner, ou encore de tirer les cordes (appelé pop ou popping). (Cf. le cours sur le slap à la basse)

Exemple


Concrètement, ça donne quoi ?
Voici une vidéo d’un guitariste japonais qui fait un magnifique slap improvisé lors d’une émission TV.



Ou encore celle-ci, qui fait partie d’un de ses albums :





Les notations sur la tablature



S : désigne les notes slappées
P : désigne les notes poppés, tirées.




Exercices



Exercice 1



Le slap et popping.
Slap, tapé avec l’os du pouce, la 2ème phalange. Veillez à ce que votre pouce soit perpendiculaire aux cordes pour faire sonner correctement.

Popping : placer votre doigt sous la corde et tirer la corde pour provoquer un son percussif. Utilisez l’index ou le majeur de la main droite.

TAB :
D | ----------------------------------------------------------------------------------
A |-------------------------------5--------------------------------------------------
E |-0-7-6-5-0-3-4-5-0-7-6-5----7-6-5-0-3-4-5-0-7-6-5-0-7-6-5-0-3-4-5-0
S s s s s s s s s s s s P s s s s s s s s s s s…..
Video :




N’hésitez pas à aller lentement au début pour ensuite accélérer. Je ne met pas de tempo ni de figure rhytmique, ici c’est juste pour que vous arriviez à bien slapper et popper les notes et puis c’est une question de groove, on saurait difficilement retranscrire un slap comme dans les vidéos ci-dessus en partition.

Exercice 2



Vous arrivez à faire l’exercice ci-dessus sans trop de problème ? C’est bon on peut ajouter des percussions maintenant ! Vous allez taper vos doigts de la main droite sur votre « pickguard », ensuite taper votre paume/pouce de la main droite de l’autre coté des cordes, là où il n’y a pas de « pickguard »et ensuite votre main gauche va venir taper sur le côté de la guitare.
d = doigts contre le « pickguard », p = paume, pouce de la main et c = taper sur le côté de la guitare.

Voici une vidéo illustrant la tab ci-dessous.





TAB :
D |--------------------------------------------------------------------------
A |-----------------------------------------------------------------2-2-2-4
E | 0-d-p-c-0-7-6-5-3-0-d-p-c-0-3-5-6-7-0-d-p-c-0-7-6-5-3-0-3-0-5

Tout se joue en slap ici, et vous pouvez ajouter un petit vibrato sur la dernière note pour terminer votre slap si vous trouvez que ça sonne bien smiley

Exercice 3



Cette fois-ci, il s’agit de slapper des accords, et entre chaque accord, claquer des doigts smiley ça donne un petit air funk smiley Veiller bien à arrêter de faire sonner l’accord directement (staccato).

Cl = non pas chlore mais claquer des doigts ;)

TAB :
D |2-----5-----7-----------------
A |2-----5-----7-----------------
E | 0-Cl-3-Cl-5-Cl-7-6-5-3-0
Vidéo :

A venir

Exercice 4



Voici encore un petit riff sympa à jouer =) Pas de difficulté particulière, jouer le un peu comme vous voulez. Par exemple, jouer les notes sol et la en passant la main par l’autre coté du manche.

TAB :
D |------------------------------------------------2
A |------------------------------------------------2
E | 0-d-p-c-0-3--d-p-c-0-5-d-p-c-0-7-6-5-3-0

Vidéo :

A venir

Exercice 5



Voici une technique qui permet plus de rapidité, le double-thumb. La technique consiste à slapper la corde normalement, et ensuite de passer le pouce sous la corde et de faire un pop avec le pouce. Ce n’est pas facile à maitriser au départ !

Dt = double thumb
X^Y = hammer-on ou pull-off de X à Y.

TAB :
D |------------------------------------------------------
A |--------------------------------------------------------
E | 0-d-p-3^5-0-0-d-p-5^7-0-d-p-8^10-0-0-d-p-3~
S Dt s s Dt s Dt s s S

TAB :
D |---------------------------------------------------------
A |-------------------------------7-5-----------------------
E | 0-d-p-3^5-0-0-d-p-5^7-0------7-6-5-3-0----------
S Dt s s Dt s p p s s s s s

Vidéo :

A venir

Exercice 6



Voici un petit riff où il suffit de maitriser les hammer-ons =) Il peut être cool pour terminer un petit slap improvisé.


TAB :
D |---------------------------------------------------------
A |---------------------------------------------------------
E | 0^3^5-0^5^7-0^5^6-0^5^7-0^3^5-0--------------

Slapper le mi à vide chaque fois et hammer-on sur les 2 autres notes.

Vidéo :

A venir

Exercice 7



Voici un autre petit riff bien sympathique =)

M= étouffer la corde, et slapper en Double thumb, en passant le pouce sous la corde.
C = Frapper les 2 premières fois sur le côté bas, la 3ème en haut, la 4ème en bas..
F = frapper au niveau du manche, bien à la perpendiculaire pour ne pas faire sonner les cordes
/ = slide

TAB :
D |--------------------------------------------------------------
A |--------------------------------------------------------------
E | 0-d-p-m-d-p-m-d-p-m-0-3/5-0-C-F-C-F-C-F-C-F-

TAB :
D |---------------------------------------------------------
A |---------------------------------------------------------
E | 0-3/5-0-d-p-c-0-3-d-p-c-0-5-6-7-6-5-3-0------

Vidéo :

A venir

A vous maintenant d’improviser vos propres riffs ! Pour vous inspirez, vous pouvez regarder des partitions de miyavi ou chercher vos propres riffs !